  0
SECTION
  2
HEADER
  9
$ACADVER
  1
AC1015
  9
$ACADMAINTVER
 70
     6
  9
$DWGCODEPAGE
  3
ANSI_1254
  9
$INSBASE
 10
0.0
 20
0.0
 30
0.0
  9
$EXTMIN
 10
0.0
 20
0.0
 30
0.0
  9
$EXTMAX
 10
279.4
 20
215.9
 30
0.0
  9
$LIMMIN
 10
0.0
 20
0.0
  9
$LIMMAX
 10
279.4
 20
215.9
  9
$ORTHOMODE
 70
     0
  9
$REGENMODE
 70
     1
  9
$FILLMODE
 70
     1
  9
$QTEXTMODE
 70
     0
  9
$MIRRTEXT
 70
     1
  9
$LTSCALE
 40
1.0
  9
$ATTMODE
 70
     1
  9
$TEXTSIZE
 40
3.5
  9
$TRACEWID
 40
1.0
  9
$TEXTSTYLE
  7
Standard
  9
$CLAYER
  8
0
  9
$CELTYPE
  6
ByLayer
  9
$CECOLOR
 62
   256
  9
$CELTSCALE
 40
1.0
  9
$DISPSILH
 70
     0
  9
$DIMSCALE
 40
1.0
  9
$DIMASZ
 40
3.5
  9
$DIMEXO
 40
1.0
  9
$DIMDLI
 40
3.75
  9
$DIMRND
 40
0.0
  9
$DIMDLE
 40
0.0
  9
$DIMEXE
 40
1.0
  9
$DIMTP
 40
0.0
  9
$DIMTM
 40
0.0
  9
$DIMTXT
 40
3.5
  9
$DIMCEN
 40
2.5
  9
$DIMTSZ
 40
0.0
  9
$DIMTOL
 70
     0
  9
$DIMLIM
 70
     0
  9
$DIMTIH
 70
     1
  9
$DIMTOH
 70
     1
  9
$DIMSE1
 70
     0
  9
$DIMSE2
 70
     0
  9
$DIMTAD
 70
     1
  9
$DIMZIN
 70
     0
  9
$DIMBLK
  1

  9
$DIMASO
 70
     1
  9
$DIMSHO
 70
     1
  9
$DIMPOST
  1

  9
$DIMAPOST
  1

  9
$DIMALT
 70
     0
  9
$DIMALTD
 70
     3
  9
$DIMALTF
 40
0.0393700787
  9
$DIMLFAC
 40
1.0
  9
$DIMTOFL
 70
     1
  9
$DIMTVP
 40
0.0
  9
$DIMTIX
 70
     0
  9
$DIMSOXD
 70
     0
  9
$DIMSAH
 70
     0
  9
$DIMBLK1
  1

  9
$DIMBLK2
  1

  9
$DIMSTYLE
  2
ISO-25
  9
$DIMCLRD
 70
     0
  9
$DIMCLRE
 70
     0
  9
$DIMCLRT
 70
     0
  9
$DIMTFAC
 40
1.0
  9
$DIMGAP
 40
1.524
  9
$DIMJUST
 70
     0
  9
$DIMSD1
 70
     0
  9
$DIMSD2
 70
     0
  9
$DIMTOLJ
 70
     0
  9
$DIMTZIN
 70
     0
  9
$DIMALTZ
 70
     0
  9
$DIMALTTZ
 70
     0
  9
$DIMUPT
 70
     0
  9
$DIMDEC
 70
     2
  9
$DIMTDEC
 70
     2
  9
$DIMALTU
 70
     2
  9
$DIMALTTD
 70
     3
  9
$DIMTXSTY
  7
Standard
  9
$DIMAUNIT
 70
     0
  9
$DIMADEC
 70
     2
  9
$DIMALTRND
 40
0.0
  9
$DIMAZIN
 70
     0
  9
$DIMDSEP
 70
    44
  9
$DIMATFIT
 70
     3
  9
$DIMFRAC
 70
     0
  9
$DIMLDRBLK
  1

  9
$DIMLUNIT
 70
     2
  9
$DIMLWD
 70
    -2
  9
$DIMLWE
 70
    -2
  9
$DIMTMOVE
 70
     0
  9
$LUNITS
 70
     2
  9
$LUPREC
 70
     2
  9
$SKETCHINC
 40
1.0
  9
$FILLETRAD
 40
10.0
  9
$AUNITS
 70
     0
  9
$AUPREC
 70
     2
  9
$MENU
  1
.
  9
$ELEVATION
 40
0.0
  9
$PELEVATION
 40
0.0
  9
$THICKNESS
 40
0.0
  9
$LIMCHECK
 70
     0
  9
$CHAMFERA
 40
0.0
  9
$CHAMFERB
 40
0.0
  9
$CHAMFERC
 40
0.0
  9
$CHAMFERD
 40
0.0
  9
$SKPOLY
 70
     0
  9
$TDCREATE
 40
2459935.709304398
  9
$TDUCREATE
 40
2459935.584304398
  9
$TDUPDATE
 40
2459935.709304572
  9
$TDUUPDATE
 40
2459935.584304572
  9
$TDINDWG
 40
0.0000000116
  9
$TDUSRTIMER
 40
0.0000000116
  9
$USRTIMER
 70
     1
  9
$ANGBASE
 50
0.0
  9
$ANGDIR
 70
     0
  9
$PDMODE
 70
     0
  9
$PDSIZE
 40
-1.0
  9
$PLINEWID
 40
0.0
  9
$SPLFRAME
 70
     0
  9
$SPLINETYPE
 70
     6
  9
$SPLINESEGS
 70
     8
  9
$HANDSEED
  5
EE
  9
$SURFTAB1
 70
     6
  9
$SURFTAB2
 70
     6
  9
$SURFTYPE
 70
     6
  9
$SURFU
 70
     6
  9
$SURFV
 70
     6
  9
$UCSBASE
  2

  9
$UCSNAME
  2

  9
$UCSORG
 10
0.0
 20
0.0
 30
0.0
  9
$UCSXDIR
 10
1.0
 20
0.0
 30
0.0
  9
$UCSYDIR
 10
0.0
 20
1.0
 30
0.0
  9
$UCSORTHOREF
  2

  9
$UCSORTHOVIEW
 70
     0
  9
$UCSORGTOP
 10
0.0
 20
0.0
 30
0.0
  9
$UCSORGBOTTOM
 10
0.0
 20
0.0
 30
0.0
  9
$UCSORGLEFT
 10
0.0
 20
0.0
 30
0.0
  9
$UCSORGRIGHT
 10
0.0
 20
0.0
 30
0.0
  9
$UCSORGFRONT
 10
0.0
 20
0.0
 30
0.0
  9
$UCSORGBACK
 10
0.0
 20
0.0
 30
0.0
  9
$PUCSBASE
  2

  9
$PUCSNAME
  2

  9
$PUCSORG
 10
0.0
 20
0.0
 30
0.0
  9
$PUCSXDIR
 10
1.0
 20
0.0
 30
0.0
  9
$PUCSYDIR
 10
0.0
 20
1.0
 30
0.0
  9
$PUCSORTHOREF
  2

  9
$PUCSORTHOVIEW
 70
     0
  9
$PUCSORGTOP
 10
0.0
 20
0.0
 30
0.0
  9
$PUCSORGBOTTOM
 10
0.0
 20
0.0
 30
0.0
  9
$PUCSORGLEFT
 10
0.0
 20
0.0
 30
0.0
  9
$PUCSORGRIGHT
 10
0.0
 20
0.0
 30
0.0
  9
$PUCSORGFRONT
 10
0.0
 20
0.0
 30
0.0
  9
$PUCSORGBACK
 10
0.0
 20
0.0
 30
0.0
  9
$USERI1
 70
     0
  9
$USERI2
 70
     0
  9
$USERI3
 70
     0
  9
$USERI4
 70
     0
  9
$USERI5
 70
     0
  9
$USERR1
 40
0.0
  9
$USERR2
 40
0.0
  9
$USERR3
 40
0.0
  9
$USERR4
 40
0.0
  9
$USERR5
 40
0.0
  9
$WORLDVIEW
 70
     1
  9
$SHADEDGE
 70
     3
  9
$SHADEDIF
 70
    70
  9
$TILEMODE
 70
     1
  9
$MAXACTVP
 70
    64
  9
$PINSBASE
 10
0.0
 20
0.0
 30
0.0
  9
$PLIMCHECK
 70
     0
  9
$PEXTMIN
 10
1.0000000000E+20
 20
1.0000000000E+20
 30
1.0000000000E+20
  9
$PEXTMAX
 10
-1.0000000000E+20
 20
-1.0000000000E+20
 30
-1.0000000000E+20
  9
$PLIMMIN
 10
0.0
 20
0.0
  9
$PLIMMAX
 10
420.0
 20
297.0
  9
$UNITMODE
 70
     0
  9
$VISRETAIN
 70
     1
  9
$PLINEGEN
 70
     0
  9
$PSLTSCALE
 70
     1
  9
$TREEDEPTH
 70
  3020
  9
$CMLSTYLE
  2
Standard
  9
$CMLJUST
 70
     0
  9
$CMLSCALE
 40
20.0
  9
$PROXYGRAPHICS
 70
     1
  9
$MEASUREMENT
 70
     1
  9
$CELWEIGHT
370
    -1
  9
$ENDCAPS
280
     0
  9
$JOINSTYLE
280
     0
  9
$LWDISPLAY
290
     1
  9
$INSUNITS
 70
     4
  9
$HYPERLINKBASE
  1

  9
$STYLESHEET
  1

  9
$XEDIT
290
     1
  9
$CEPSNTYPE
380
     0
  9
$PSTYLEMODE
290
     1
  9
$FINGERPRINTGUID
  2
{232bca03-c262-418f-8850-b4e41b168806}
  9
$VERSIONGUID
  2
{FAEB1C32-E019-11D5-929B-00C0DF256EC4}
  9
$EXTNAMES
290
     1
  9
$PSVPSCALE
 40
0.0
  9
$OLESTARTUP
290
     0
  0
ENDSEC
  0
SECTION
  2
CLASSES
  0
CLASS
  1
ACDBDICTIONARYWDFLT
  2
AcDbDictionaryWithDefault
  3
ObjectDBX Classes
 90
        0
280
     0
281
     0
  0
CLASS
  1
VISUALSTYLE
  2
AcDbVisualStyle
  3
ObjectDBX Classes
 90
     4095
280
     0
281
     0
  0
CLASS
  1
MATERIAL
  2
AcDbMaterial
  3
ObjectDBX Classes
 90
     1153
280
     0
281
     0
  0
CLASS
  1
SCALE
  2
AcDbScale
  3
ObjectDBX Classes
 90
     1153
280
     0
281
     0
  0
CLASS
  1
TABLESTYLE
  2
AcDbTableStyle
  3
ObjectDBX Classes
 90
     4095
280
     0
281
     0
  0
CLASS
  1
MLEADERSTYLE
  2
AcDbMLeaderStyle
  3
ACDB_MLEADERSTYLE_CLASS
 90
     4095
280
     0
281
     0
  0
CLASS
  1
SUN
  2
AcDbSun
  3
SCENEOE
 90
     1153
280
     0
281
     0
  0
CLASS
  1
ACDBPLACEHOLDER
  2
AcDbPlaceHolder
  3
ObjectDBX Classes
 90
        0
280
     0
281
     0
  0
CLASS
  1
LAYOUT
  2
AcDbLayout
  3
ObjectDBX Classes
 90
        0
280
     0
281
     0
  0
ENDSEC
  0
SECTION
  2
TABLES
  0
TABLE
  2
VPORT
  5
8
330
0
100
AcDbSymbolTable
 70
     1
  0
VPORT
  5
29
330
8
100
AcDbSymbolTableRecord
100
AcDbViewportTableRecord
  2
*Active
 70
     0
 10
0.0
 20
0.0
 11
1.0
 21
1.0
 12
139.7
 22
107.95
 13
0.0
 23
0.0
 14
10.0
 24
10.0
 15
10.0
 25
10.0
 16
0.0
 26
0.0
 36
1.0
 17
0.0
 27
0.0
 37
0.0
 40
215.9
 41
1.2941176471
 42
50.0
 43
0.0
 44
0.0
 50
0.0
 51
0.0
 71
     0
 72
  2000
 73
     1
 74
     3
 75
     0
 76
     0
 77
     0
 78
     0
281
     0
 65
     1
110
0.0
120
0.0
130
0.0
111
1.0
121
0.0
131
0.0
112
0.0
122
1.0
132
0.0
 79
     0
146
0.0
  0
ENDTAB
  0
TABLE
  2
LTYPE
  5
5
330
0
100
AcDbSymbolTable
 70
     6
  0
LTYPE
  5
14
330
5
100
AcDbSymbolTableRecord
100
AcDbLinetypeTableRecord
  2
ByBlock
 70
     0
  3

 72
    65
 73
     0
 40
0.0
  0
LTYPE
  5
15
330
5
100
AcDbSymbolTableRecord
100
AcDbLinetypeTableRecord
  2
ByLayer
 70
     0
  3

 72
    65
 73
     0
 40
0.0
  0
LTYPE
  5
16
330
5
100
AcDbSymbolTableRecord
100
AcDbLinetypeTableRecord
  2
Continuous
 70
     0
  3
Solid line
 72
    65
 73
     0
 40
0.0
  0
LTYPE
  5
6E
330
5
100
AcDbSymbolTableRecord
100
AcDbLinetypeTableRecord
  2
HIDDEN
 70
     0
  3
Hidden __ __ __ __ __ __ __ __ __ __ __ __ __ __
 72
    65
 73
     2
 40
1.905
 49
1.27
 74
     0
 49
-0.635
 74
     0
  0
LTYPE
  5
6F
330
5
100
AcDbSymbolTableRecord
100
AcDbLinetypeTableRecord
  2
PHANTOM
 70
     0
  3
Phantom ______  __  __  ______  __  __  ______
 72
    65
 73
     6
 40
12.7
 49
6.35
 74
     0
 49
-1.27
 74
     0
 49
1.27
 74
     0
 49
-1.27
 74
     0
 49
1.27
 74
     0
 49
-1.27
 74
     0
  0
LTYPE
  5
70
330
5
100
AcDbSymbolTableRecord
100
AcDbLinetypeTableRecord
  2
CENTER
 70
     0
  3
Center ____ _ ____ _ ____ _ ____ _ ____ _ ____
 72
    65
 73
     4
 40
10.16
 49
6.35
 74
     0
 49
-1.27
 74
     0
 49
1.27
 74
     0
 49
-1.27
 74
     0
  0
LTYPE
  5
71
330
5
100
AcDbSymbolTableRecord
100
AcDbLinetypeTableRecord
  2
CENTERX2
 70
     0
  3
Center (2x) ________  __  ________  __  _____
 72
    65
 73
     4
 40
20.32
 49
12.7
 74
     0
 49
-2.54
 74
     0
 49
2.54
 74
     0
 49
-2.54
 74
     0
  0
LTYPE
  5
72
330
5
100
AcDbSymbolTableRecord
100
AcDbLinetypeTableRecord
  2
DOT2
 70
     0
  3
Dot (.5x) ........................................
 72
    65
 73
     2
 40
0.635
 49
0.0
 74
     0
 49
-0.635
 74
     0
  0
ENDTAB
  0
TABLE
  2
LAYER
  5
2
330
0
100
AcDbSymbolTable
 70
    17
  0
LAYER
  5
10
330
2
100
AcDbSymbolTableRecord
100
AcDbLayerTableRecord
  2
0
 70
     0
 62
     7
  6
Continuous
370
    -3
390
F
  0
LAYER
  5
73
330
2
100
AcDbSymbolTableRecord
100
AcDbLayerTableRecord
  2
FORMAT
 70
     0
 62
     7
  6
Continuous
370
    -3
390
F
  0
LAYER
  5
74
330
2
100
AcDbSymbolTableRecord
100
AcDbLayerTableRecord
  2
YARDIMCI_GEOMETRI
 70
     0
 62
    -6
  6
Continuous
290
     0
370
    -3
390
F
  0
LAYER
  5
75
330
2
100
AcDbSymbolTableRecord
100
AcDbLayerTableRecord
  2
SAYFA_CERCEVESI
 70
     0
 62
     7
  6
Continuous
370
    25
390
F
  0
LAYER
  5
76
330
2
100
AcDbSymbolTableRecord
100
AcDbLayerTableRecord
  2
ANTET
 70
     0
 62
     7
  6
Continuous
370
    -3
390
F
  0
LAYER
  5
77
330
2
100
AcDbSymbolTableRecord
100
AcDbLayerTableRecord
  2
OLCU
 70
     0
 62
   150
  6
Continuous
370
    -3
390
F
  0
LAYER
  5
78
330
2
100
AcDbSymbolTableRecord
100
AcDbLayerTableRecord
  2
METIN
 70
     0
 62
    96
  6
Continuous
370
    -3
390
F
  0
LAYER
  5
79
330
2
100
AcDbSymbolTableRecord
100
AcDbLayerTableRecord
  2
BALON
 70
     0
 62
     5
  6
Continuous
370
    -3
390
F
  0
LAYER
  5
7A
330
2
100
AcDbSymbolTableRecord
100
AcDbLayerTableRecord
  2
VURGU
 70
     0
 62
     7
  6
Continuous
370
    -3
390
F
  0
LAYER
  5
7B
330
2
100
AcDbSymbolTableRecord
100
AcDbLayerTableRecord
  2
SILIK
 70
     0
 62
     7
  6
Continuous
370
    -3
390
F
  0
LAYER
  5
7C
330
2
100
AcDbSymbolTableRecord
100
AcDbLayerTableRecord
  2
MODEL
 70
     0
 62
     7
  6
Continuous
370
    -3
390
F
  0
LAYER
  5
7D
330
2
100
AcDbSymbolTableRecord
100
AcDbLayerTableRecord
  2
DETAYLANDıRMA
 70
     0
 62
   190
  6
Continuous
370
    -3
390
F
  0
LAYER
  5
7E
330
2
100
AcDbSymbolTableRecord
100
AcDbLayerTableRecord
  2
TOLERANS
 70
     0
 62
   230
  6
Continuous
370
    -3
390
F
  0
LAYER
  5
7F
330
2
100
AcDbSymbolTableRecord
100
AcDbLayerTableRecord
  2
MERKEZ_CIZGILERI
 70
     0
 62
    30
  6
Continuous
370
    -3
390
F
  0
LAYER
  5
80
330
2
100
AcDbSymbolTableRecord
100
AcDbLayerTableRecord
  2
KESIT-DETAY_CIZGILERI
 70
     0
 62
     7
  6
Continuous
370
    -3
390
F
  0
LAYER
  5
81
330
2
100
AcDbSymbolTableRecord
100
AcDbLayerTableRecord
  2
\U+041E\U+0421\U+0415\U+0412\U+042B\U+0415
 70
     0
 62
     7
  6
Continuous
370
    -3
390
F
  0
LAYER
  5
82
330
2
100
AcDbSymbolTableRecord
100
AcDbLayerTableRecord
  2
\U+0412\U+041E\U+0414\U+042F\U+041D\U+042B\U+0415_\U+0417\U+041D\U+0410\U+041A\U+0418
 70
     0
 62
    11
  6
Continuous
370
    -3
390
F
  0
ENDTAB
  0
TABLE
  2
STYLE
  5
3
330
0
100
AcDbSymbolTable
 70
     1
  0
STYLE
  5
11
330
3
100
AcDbSymbolTableRecord
100
AcDbTextStyleTableRecord
  2
Standard
 70
     0
 40
0.0
 41
1.0
 50
0.0
 71
     0
 42
3.5
  3
txt
  4

  0
ENDTAB
  0
TABLE
  2
VIEW
  5
6
330
0
100
AcDbSymbolTable
 70
     0
  0
ENDTAB
  0
TABLE
  2
UCS
  5
7
330
0
100
AcDbSymbolTable
 70
     0
  0
ENDTAB
  0
TABLE
  2
APPID
  5
9
330
0
100
AcDbSymbolTable
 70
     1
  0
APPID
  5
12
330
9
100
AcDbSymbolTableRecord
100
AcDbRegAppTableRecord
  2
ACAD
 70
     0
  0
ENDTAB
  0
TABLE
  2
DIMSTYLE
  5
A
330
0
100
AcDbSymbolTable
 70
     1
100
AcDbDimStyleTable
  0
DIMSTYLE
105
27
330
A
100
AcDbSymbolTableRecord
100
AcDbDimStyleTableRecord
  2
ISO-25
 70
     0
 41
2.5
 42
0.625
 43
3.75
 44
1.25
 73
     0
 74
     0
 77
     1
 78
     8
140
2.5
141
2.5
143
0.0393700787
147
0.625
171
     3
172
     1
178
     0
271
     2
272
     2
274
     3
278
    44
283
     0
284
     8
340
11
  0
ENDTAB
  0
TABLE
  2
BLOCK_RECORD
  5
1
330
0
100
AcDbSymbolTable
 70
     2
  0
BLOCK_RECORD
  5
1F
330
1
100
AcDbSymbolTableRecord
100
AcDbBlockTableRecord
  2
*Model_Space
340
22
  0
BLOCK_RECORD
  5
1B
330
1
100
AcDbSymbolTableRecord
100
AcDbBlockTableRecord
  2
*Paper_Space
340
1E
  0
BLOCK_RECORD
  5
23
330
1
100
AcDbSymbolTableRecord
100
AcDbBlockTableRecord
  2
*Paper_Space0
340
26
  0
BLOCK_RECORD
  5
8C
330
1
100
AcDbSymbolTableRecord
100
AcDbBlockTableRecord
  2
SW_CENTERMARKSYMBOL_0
340
0
102
{BLKREFS
331
97
102
}
  0
ENDTAB
  0
ENDSEC
  0
SECTION
  2
BLOCKS
  0
BLOCK
  5
20
330
1F
100
AcDbEntity
  8
0
100
AcDbBlockBegin
  2
*Model_Space
 70
     0
 10
0.0
 20
0.0
 30
0.0
  3
*Model_Space
  1

  0
ENDBLK
  5
21
330
1F
100
AcDbEntity
  8
0
100
AcDbBlockEnd
  0
BLOCK
  5
1C
330
1B
100
AcDbEntity
 67
     1
  8
0
100
AcDbBlockBegin
  2
*Paper_Space
 70
     0
 10
0.0
 20
0.0
 30
0.0
  3
*Paper_Space
  1

  0
ENDBLK
  5
1D
330
1B
100
AcDbEntity
 67
     1
  8
0
100
AcDbBlockEnd
  0
BLOCK
  5
24
330
23
100
AcDbEntity
  8
0
100
AcDbBlockBegin
  2
*Paper_Space0
 70
     0
 10
0.0
 20
0.0
 30
0.0
  3
*Paper_Space0
  1

  0
ENDBLK
  5
25
330
23
100
AcDbEntity
  8
0
100
AcDbBlockEnd
  0
BLOCK
  5
8D
330
8C
100
AcDbEntity
  8
0
100
AcDbBlockBegin
  2
SW_CENTERMARKSYMBOL_0
 70
     0
 10
0.0
 20
0.0
 30
0.0
  3
SW_CENTERMARKSYMBOL_0
  1

  0
LINE
  5
8F
330
8C
100
AcDbEntity
  8
FORMAT
 62
     0
100
AcDbLine
 10
0.0
 20
0.0
 30
0.0
 11
0.0
 21
2.5
 31
0.0
  0
LINE
  5
90
330
8C
100
AcDbEntity
  8
FORMAT
 62
     0
100
AcDbLine
 10
0.0
 20
0.0
 30
0.0
 11
-2.5
 21
0.0
 31
0.0
  0
LINE
  5
91
330
8C
100
AcDbEntity
  8
FORMAT
 62
     0
100
AcDbLine
 10
0.0
 20
0.0
 30
0.0
 11
0.0
 21
-2.5
 31
0.0
  0
LINE
  5
92
330
8C
100
AcDbEntity
  8
FORMAT
 62
     0
100
AcDbLine
 10
0.0
 20
0.0
 30
0.0
 11
2.5
 21
0.0
 31
0.0
  0
LINE
  5
93
330
8C
100
AcDbEntity
  8
FORMAT
 62
     0
100
AcDbLine
 10
0.0
 20
5.0
 30
0.0
 11
0.0
 21
22.5
 31
0.0
  0
LINE
  5
94
330
8C
100
AcDbEntity
  8
FORMAT
 62
     0
100
AcDbLine
 10
-5.0
 20
0.0
 30
0.0
 11
-22.5
 21
0.0
 31
0.0
  0
LINE
  5
95
330
8C
100
AcDbEntity
  8
FORMAT
 62
     0
100
AcDbLine
 10
0.0
 20
-5.0
 30
0.0
 11
0.0
 21
-22.5
 31
0.0
  0
LINE
  5
96
330
8C
100
AcDbEntity
  8
FORMAT
 62
     0
100
AcDbLine
 10
5.0
 20
0.0
 30
0.0
 11
22.5
 21
0.0
 31
0.0
  0
ENDBLK
  5
8E
330
8C
100
AcDbEntity
  8
0
100
AcDbBlockEnd
  0
ENDSEC
  0
SECTION
  2
ENTITIES
  0
CIRCLE
  5
83
330
1F
100
AcDbEntity
  8
0
  6
Continuous
 62
     7
370
    25
100
AcDbCircle
 10
139.8323425481
 20
108.7440552885
 30
0.0
 40
16.30000000000001
  0
CIRCLE
  5
84
330
1F
100
AcDbEntity
  8
0
  6
Continuous
 62
     7
370
    25
100
AcDbCircle
 10
139.8323425481
 20
108.7440552885
 30
0.0
 40
20.00000000000001
  0
CIRCLE
  5
85
330
1F
100
AcDbEntity
  8
0
  6
Continuous
 62
     7
370
    25
100
AcDbCircle
 10
139.8323425481
 20
108.7440552885
 30
0.0
 40
15.3
  0
LINE
  5
86
330
1F
100
AcDbEntity
  8
0
  6
Continuous
 62
     7
370
    25
100
AcDbLine
 10
139.8323425481
 20
76.989790483
 30
0.0
 11
112.3323425481
 21
92.8669228857
 31
0.0
  0
LINE
  5
87
330
1F
100
AcDbEntity
  8
0
  6
Continuous
 62
     7
370
    25
100
AcDbLine
 10
112.3323425481
 20
92.8669228857
 30
0.0
 11
112.3323425481
 21
124.6211876912
 31
0.0
  0
LINE
  5
88
330
1F
100
AcDbEntity
  8
0
  6
Continuous
 62
     7
370
    25
100
AcDbLine
 10
112.3323425481
 20
124.6211876912
 30
0.0
 11
139.8323425481
 21
140.4983200939
 31
0.0
  0
LINE
  5
89
330
1F
100
AcDbEntity
  8
0
  6
Continuous
 62
     7
370
    25
100
AcDbLine
 10
139.8323425481
 20
140.4983200939
 30
0.0
 11
167.3323425481
 21
124.6211876912
 31
0.0
  0
LINE
  5
8A
330
1F
100
AcDbEntity
  8
0
  6
Continuous
 62
     7
370
    25
100
AcDbLine
 10
167.3323425481
 20
124.6211876912
 30
0.0
 11
167.3323425481
 21
92.8669228857
 31
0.0
  0
LINE
  5
8B
330
1F
100
AcDbEntity
  8
0
  6
Continuous
 62
     7
370
    25
100
AcDbLine
 10
167.3323425481
 20
92.8669228857
 30
0.0
 11
139.8323425481
 21
76.989790483
 31
0.0
  0
INSERT
  5
97
330
1F
100
AcDbEntity
  8
FORMAT
 62
     7
100
AcDbBlockReference
  2
SW_CENTERMARKSYMBOL_0
 10
139.8323425481
 20
108.7440552885
 30
0.0
  0
LINE
  5
98
330
1F
100
AcDbEntity
  8
0
  6
Continuous
 62
     7
370
    25
100
AcDbLine
 10
166.3323425481
 20
181.0662645126
 30
0.0
 11
166.3323425481
 21
199.0662645126
 31
0.0
  0
LINE
  5
99
330
1F
100
AcDbEntity
  8
0
  6
Continuous
 62
     7
370
    25
100
AcDbLine
 10
113.3323425481
 20
199.0662645126
 30
0.0
 11
113.3323425481
 21
181.0662645126
 31
0.0
  0
LINE
  5
9A
330
1F
100
AcDbEntity
  8
0
  6
Continuous
 62
     7
370
    25
100
AcDbLine
 10
159.8323425481
 20
217.5662645126
 30
0.0
 11
159.8323425481
 21
260.0662645126
 31
0.0
  0
LINE
  5
9B
330
1F
100
AcDbEntity
  8
0
  6
Continuous
 62
     7
370
    25
100
AcDbLine
 10
119.8323425481
 20
260.0662645126
 30
0.0
 11
119.8323425481
 21
217.5662645126
 31
0.0
  0
LINE
  5
9C
330
1F
100
AcDbEntity
  8
0
  6
Continuous
 62
     7
370
    25
100
AcDbLine
 10
166.3323425481
 20
181.0662645126
 30
0.0
 11
113.3323425481
 21
181.0662645126
 31
0.0
  0
LINE
  5
9D
330
1F
100
AcDbEntity
  8
0
  6
Continuous
 62
     7
370
    25
100
AcDbLine
 10
139.8323425481
 20
217.5662645126
 30
0.0
 11
139.8323425481
 21
199.0662645126
 31
0.0
  0
LINE
  5
9E
330
1F
100
AcDbEntity
  8
0
  6
Continuous
 62
     7
370
    25
100
AcDbLine
 10
112.3323425481
 20
199.0662645126
 30
0.0
 11
139.8323425481
 21
199.0662645126
 31
0.0
  0
LINE
  5
9F
330
1F
100
AcDbEntity
  8
0
  6
Continuous
 62
     7
370
    25
100
AcDbLine
 10
112.3323425481
 20
217.5662645126
 30
0.0
 11
112.3323425481
 21
199.0662645126
 31
0.0
  0
LINE
  5
A0
330
1F
100
AcDbEntity
  8
0
  6
Continuous
 62
     7
370
    25
100
AcDbLine
 10
139.8323425481
 20
217.5662645126
 30
0.0
 11
112.3323425481
 21
217.5662645126
 31
0.0
  0
LINE
  5
A1
330
1F
100
AcDbEntity
  8
0
  6
Continuous
 62
     7
370
    25
100
AcDbLine
 10
167.3323425481
 20
217.5662645126
 30
0.0
 11
167.3323425481
 21
199.0662645126
 31
0.0
  0
LINE
  5
A2
330
1F
100
AcDbEntity
  8
0
  6
Continuous
 62
     7
370
    25
100
AcDbLine
 10
139.8323425481
 20
199.0662645126
 30
0.0
 11
167.3323425481
 21
199.0662645126
 31
0.0
  0
LINE
  5
A3
330
1F
100
AcDbEntity
  8
0
  6
Continuous
 62
     7
370
    25
100
AcDbLine
 10
167.3323425481
 20
217.5662645126
 30
0.0
 11
139.8323425481
 21
217.5662645126
 31
0.0
  0
LINE
  5
A4
330
1F
100
AcDbEntity
  8
0
  6
Continuous
 62
     7
370
    25
100
AcDbLine
 10
159.8323425481
 20
260.0662645126
 30
0.0
 11
119.8323425481
 21
260.0662645126
 31
0.0
  0
LINE
  5
A5
330
1F
100
AcDbEntity
  8
0
  6
Continuous
 62
     7
370
    25
100
AcDbLine
 10
221.2064657861
 20
82.2440552885
 30
0.0
 11
239.2064657861
 21
82.2440552885
 31
0.0
  0
LINE
  5
A6
330
1F
100
AcDbEntity
  8
0
  6
Continuous
 62
     7
370
    25
100
AcDbLine
 10
239.2064657861
 20
135.2440552885
 30
0.0
 11
221.2064657861
 21
135.2440552885
 31
0.0
  0
LINE
  5
A7
330
1F
100
AcDbEntity
  8
0
  6
Continuous
 62
     7
370
    25
100
AcDbLine
 10
257.7064657861
 20
88.7440552885
 30
0.0
 11
300.2064657861
 21
88.7440552885
 31
0.0
  0
LINE
  5
A8
330
1F
100
AcDbEntity
  8
0
  6
Continuous
 62
     7
370
    25
100
AcDbLine
 10
300.2064657861
 20
128.7440552885
 30
0.0
 11
257.7064657861
 21
128.7440552885
 31
0.0
  0
LINE
  5
A9
330
1F
100
AcDbEntity
  8
0
  6
Continuous
 62
     7
370
    25
100
AcDbLine
 10
221.2064657861
 20
108.7440552885
 30
0.0
 11
221.2064657861
 21
135.2440552885
 31
0.0
  0
LINE
  5
AA
330
1F
100
AcDbEntity
  8
0
  6
Continuous
 62
     7
370
    25
100
AcDbLine
 10
221.2064657861
 20
82.2440552885
 30
0.0
 11
221.2064657861
 21
108.7440552885
 31
0.0
  0
LINE
  5
AB
330
1F
100
AcDbEntity
  8
0
  6
Continuous
 62
     7
370
    25
100
AcDbLine
 10
257.7064657861
 20
76.989790483
 30
0.0
 11
239.2064657861
 21
76.989790483
 31
0.0
  0
LINE
  5
AC
330
1F
100
AcDbEntity
  8
0
  6
Continuous
 62
     7
370
    25
100
AcDbLine
 10
239.2064657861
 20
92.8669228857
 30
0.0
 11
239.2064657861
 21
76.989790483
 31
0.0
  0
LINE
  5
AD
330
1F
100
AcDbEntity
  8
0
  6
Continuous
 62
     7
370
    25
100
AcDbLine
 10
257.7064657861
 20
92.8669228857
 30
0.0
 11
239.2064657861
 21
92.8669228857
 31
0.0
  0
LINE
  5
AE
330
1F
100
AcDbEntity
  8
0
  6
Continuous
 62
     7
370
    25
100
AcDbLine
 10
257.7064657861
 20
76.989790483
 30
0.0
 11
257.7064657861
 21
92.8669228857
 31
0.0
  0
LINE
  5
AF
330
1F
100
AcDbEntity
  8
0
  6
Continuous
 62
     7
370
    25
100
AcDbLine
 10
257.7064657861
 20
124.6211876912
 30
0.0
 11
239.2064657861
 21
124.6211876912
 31
0.0
  0
LINE
  5
B0
330
1F
100
AcDbEntity
  8
0
  6
Continuous
 62
     7
370
    25
100
AcDbLine
 10
257.7064657861
 20
92.8669228857
 30
0.0
 11
257.7064657861
 21
124.6211876912
 31
0.0
  0
LINE
  5
B1
330
1F
100
AcDbEntity
  8
0
  6
Continuous
 62
     7
370
    25
100
AcDbLine
 10
239.2064657861
 20
124.6211876912
 30
0.0
 11
239.2064657861
 21
92.8669228857
 31
0.0
  0
LINE
  5
B2
330
1F
100
AcDbEntity
  8
0
  6
Continuous
 62
     7
370
    25
100
AcDbLine
 10
257.7064657861
 20
140.4983200939
 30
0.0
 11
239.2064657861
 21
140.4983200939
 31
0.0
  0
LINE
  5
B3
330
1F
100
AcDbEntity
  8
0
  6
Continuous
 62
     7
370
    25
100
AcDbLine
 10
257.7064657861
 20
124.6211876912
 30
0.0
 11
257.7064657861
 21
140.4983200939
 31
0.0
  0
LINE
  5
B4
330
1F
100
AcDbEntity
  8
0
  6
Continuous
 62
     7
370
    25
100
AcDbLine
 10
239.2064657861
 20
140.4983200939
 30
0.0
 11
239.2064657861
 21
124.6211876912
 31
0.0
  0
LINE
  5
B5
330
1F
100
AcDbEntity
  8
0
  6
Continuous
 62
     7
370
    25
100
AcDbLine
 10
300.2064657861
 20
108.7440552885
 30
0.0
 11
300.2064657861
 21
128.7440552885
 31
0.0
  0
LINE
  5
B6
330
1F
100
AcDbEntity
  8
0
  6
Continuous
 62
     7
370
    25
100
AcDbLine
 10
300.2064657861
 20
88.7440552885
 30
0.0
 11
300.2064657861
 21
108.7440552885
 31
0.0
  0
LINE
  5
B7
330
1F
100
AcDbEntity
  8
0
  6
Continuous
 62
     7
370
    25
100
AcDbLine
 10
50.5805582993
 20
135.2440552885
 30
0.0
 11
32.5805582993
 21
135.2440552885
 31
0.0
  0
LINE
  5
B8
330
1F
100
AcDbEntity
  8
0
  6
Continuous
 62
     7
370
    25
100
AcDbLine
 10
32.5805582993
 20
82.2440552885
 30
0.0
 11
50.5805582993
 21
82.2440552885
 31
0.0
  0
LINE
  5
B9
330
1F
100
AcDbEntity
  8
0
  6
Continuous
 62
     7
370
    25
100
AcDbLine
 10
14.0805582993
 20
128.7440552885
 30
0.0
 11
-28.4194417007
 21
128.7440552885
 31
0.0
  0
LINE
  5
BA
330
1F
100
AcDbEntity
  8
0
  6
Continuous
 62
     7
370
    25
100
AcDbLine
 10
-28.4194417007
 20
88.7440552885
 30
0.0
 11
14.0805582993
 21
88.7440552885
 31
0.0
  0
LINE
  5
BB
330
1F
100
AcDbEntity
  8
0
  6
Continuous
 62
     7
370
    25
100
AcDbLine
 10
50.5805582993
 20
135.2440552885
 30
0.0
 11
50.5805582993
 21
82.2440552885
 31
0.0
  0
LINE
  5
BC
330
1F
100
AcDbEntity
  8
0
  6
Continuous
 62
     7
370
    25
100
AcDbLine
 10
14.0805582993
 20
140.4983200939
 30
0.0
 11
32.5805582993
 21
140.4983200939
 31
0.0
  0
LINE
  5
BD
330
1F
100
AcDbEntity
  8
0
  6
Continuous
 62
     7
370
    25
100
AcDbLine
 10
32.5805582993
 20
124.6211876912
 30
0.0
 11
32.5805582993
 21
140.4983200939
 31
0.0
  0
LINE
  5
BE
330
1F
100
AcDbEntity
  8
0
  6
Continuous
 62
     7
370
    25
100
AcDbLine
 10
14.0805582993
 20
124.6211876912
 30
0.0
 11
32.5805582993
 21
124.6211876912
 31
0.0
  0
LINE
  5
BF
330
1F
100
AcDbEntity
  8
0
  6
Continuous
 62
     7
370
    25
100
AcDbLine
 10
14.0805582993
 20
140.4983200939
 30
0.0
 11
14.0805582993
 21
124.6211876912
 31
0.0
  0
LINE
  5
C0
330
1F
100
AcDbEntity
  8
0
  6
Continuous
 62
     7
370
    25
100
AcDbLine
 10
32.5805582993
 20
92.8669228857
 30
0.0
 11
32.5805582993
 21
124.6211876912
 31
0.0
  0
LINE
  5
C1
330
1F
100
AcDbEntity
  8
0
  6
Continuous
 62
     7
370
    25
100
AcDbLine
 10
14.0805582993
 20
92.8669228857
 30
0.0
 11
32.5805582993
 21
92.8669228857
 31
0.0
  0
LINE
  5
C2
330
1F
100
AcDbEntity
  8
0
  6
Continuous
 62
     7
370
    25
100
AcDbLine
 10
14.0805582993
 20
124.6211876912
 30
0.0
 11
14.0805582993
 21
92.8669228857
 31
0.0
  0
LINE
  5
C3
330
1F
100
AcDbEntity
  8
0
  6
Continuous
 62
     7
370
    25
100
AcDbLine
 10
14.0805582993
 20
76.989790483
 30
0.0
 11
32.5805582993
 21
76.989790483
 31
0.0
  0
LINE
  5
C4
330
1F
100
AcDbEntity
  8
0
  6
Continuous
 62
     7
370
    25
100
AcDbLine
 10
14.0805582993
 20
92.8669228857
 30
0.0
 11
14.0805582993
 21
76.989790483
 31
0.0
  0
LINE
  5
C5
330
1F
100
AcDbEntity
  8
0
  6
Continuous
 62
     7
370
    25
100
AcDbLine
 10
32.5805582993
 20
76.989790483
 30
0.0
 11
32.5805582993
 21
92.8669228857
 31
0.0
  0
LINE
  5
C6
330
1F
100
AcDbEntity
  8
0
  6
Continuous
 62
     7
370
    25
100
AcDbLine
 10
-28.4194417007
 20
128.7440552885
 30
0.0
 11
-28.4194417007
 21
88.7440552885
 31
0.0
  0
LINE
  5
C7
330
1F
100
AcDbEntity
  8
0
  6
Continuous
 62
     7
370
    25
100
AcDbLine
 10
290.9417195888
 20
9.9418689933
 30
0.0
 11
284.4103108027
 21
13.7123710281
 31
0.0
  0
LINE
  5
C8
330
1F
100
AcDbEntity
  8
0
  6
Continuous
 62
     7
370
    25
100
AcDbLine
 10
255.3925354724
 20
-30.7334946799
 30
0.0
 11
264.443873174
 21
-35.9587207129
 31
0.0
  0
LINE
  5
C9
330
1F
100
AcDbEntity
  8
0
  6
Continuous
 62
     7
370
    25
100
AcDbLine
 10
261.8825861944
 20
19.2119994286
 30
0.0
 11
231.830547994
 21
36.5606718048
 31
0.0
  0
LINE
  5
CA
330
1F
100
AcDbEntity
  8
0
  6
Continuous
 62
     7
370
    25
100
AcDbLine
 10
211.8321733413
 20
1.9187173096
 30
0.0
 11
241.8842115417
 21
-15.4299550667
 31
0.0
  0
LWPOLYLINE
  5
CB
330
1F
100
AcDbEntity
  8
0
  6
Continuous
 62
     7
370
    25
100
AcDbPolyline
 90
       59
 70
   128
 43
0.0
 10
290.9417195888
 20
9.9418689933
 10
291.5608572972
 20
9.5493695109
 10
292.2283302997
 20
9.0384494143
 10
292.8524235561
 20
8.4617327766
 10
293.4312745266
 20
7.8209407471
 10
293.9631556927
 20
7.117985701
 10
294.4464797117
 20
6.3549655324
 10
294.8798041549
 20
5.5341573934
 10
295.2618358118
 20
4.6580108981
 10
295.5914345498
 20
3.729140812
 10
295.8676167168
 20
2.7503192485
 10
296.0895580765
 20
1.7244673959
 10
296.2565962688
 20
0.6546467992
 10
296.368232786
 20
-0.4559497763
 10
296.4241344609
 20
-1.604007874
 10
296.4241344609
 20
-2.7861012372
 10
296.368232786
 20
-3.9987020349
 10
296.2565962688
 20
-5.2381913896
 10
296.0895580765
 20
-6.500870178
 10
295.8676167168
 20
-7.7829700701
 10
295.5914345498
 20
-9.0806647762
 10
295.2618358118
 20
-10.390081465
 10
294.8798041549
 20
-11.7073123227
 10
294.4464797117
 20
-13.0284262145
 10
293.9631556927
 20
-14.3494804174
 10
293.4312745266
 20
-15.6665323864
 10
292.8524235561
 20
-16.9756515208
 10
292.2283302997
 20
-18.2729308946
 10
291.5608572972
 20
-19.5544989162
 10
290.8519965504
 20
-20.816530883
 10
290.1038635781
 20
-22.0552603956
 10
289.3186911034
 20
-23.2669905981
 10
288.4988223895
 20
-24.4481052116
 10
287.6467042468
 20
-25.5950793256
 10
286.7648797309
 20
-26.7044899188
 10
285.8559805525
 20
-27.7730260737
 10
284.9227192242
 20
-28.7974988586
 10
283.9678809645
 20
-29.7748508441
 10
282.9943153861
 20
-30.7021652276
 10
282.0049279914
 20
-31.5766745386
 10
281.002671501
 20
-32.3957688976
 10
279.9905370424
 20
-33.157003805
 10
278.9715452226
 20
-33.8581074368
 10
277.9487371137
 20
-34.4969874241
 10
276.925165177
 20
-35.071737098
 10
275.9038841536
 20
-35.5806411795
 10
274.8879419473
 20
-36.0221808988
 10
273.8803705291
 20
-36.3950385279
 10
272.884176888
 20
-36.6981013131
 10
271.9023340574
 20
-36.9304647958
 10
270.9377722423
 20
-37.0914355122
 10
269.9933700742
 20
-37.1805330623
 10
269.0719460203
 20
-37.1974915441
 10
268.1762499721
 20
-37.1422603467
 10
267.3089550388
 20
-37.0150043018
 10
266.4726495693
 20
-36.8161031914
 10
265.6698294277
 20
-36.5461506146
 10
264.902890545
 20
-36.205952216
 10
264.443873174
 20
-35.9587207129
  0
LWPOLYLINE
  5
CC
330
1F
100
AcDbEntity
  8
0
  6
Continuous
 62
     7
370
    25
100
AcDbPolyline
 90
       91
 70
   128
 43
0.0
 10
210.3055201343
 20
12.5859684458
 10
210.3335965026
 20
13.5306084138
 10
210.4176888221
 20
14.5030624756
 10
210.5573874035
 20
15.4985929328
 10
210.7520116495
 20
16.512349661
 10
211.0006133701
 20
17.5393937395
 10
211.3019814029
 20
18.5747215125
 10
211.6546475131
 20
19.6132889675
 10
212.0568935468
 20
20.650036308
 10
212.5067598017
 20
21.6799126052
 10
213.0020545748
 20
22.6979004055
 10
213.5403648397
 20
23.6990401744
 10
214.1190680028
 20
24.6784544598
 10
214.7353446805
 20
25.6313716536
 10
215.3861924349
 20
26.5531492391
 10
216.068440401
 20
27.4392964085
 10
216.7787647353
 20
28.2854959419
 10
217.5137048092
 20
29.0876252403
 10
218.2696800684
 20
29.8417764103
 10
219.0430074774
 20
30.5442753032
 10
219.829919463
 20
31.191699415
 10
220.6265822688
 20
31.7808945606
 10
221.429114634
 20
32.3089902404
 10
222.2336067013
 20
32.7734136254
 10
223.0361390665
 20
33.1719020915
 10
223.8328018723
 20
33.5025142429
 10
224.6197138579
 20
33.7636393705
 10
225.3930412669
 20
33.9540052989
 10
226.1490165261
 20
34.0726845845
 10
226.8839566
 20
34.1190990336
 10
227.5942809343
 20
34.0930225199
 10
228.2765289004
 20
33.9945820853
 10
228.9273766548
 20
33.8242573219
 10
229.5436533325
 20
33.5828780347
 10
230.1223564956
 20
33.2716201993
 10
230.6606667605
 20
32.8920002328
 10
231.1559615336
 20
32.4458676053
 10
231.6058277886
 20
31.9353958301
 10
232.0080738222
 20
31.3630718746
 10
232.3607399324
 20
30.7316840434
 10
232.6621079652
 20
30.0443083946
 10
232.9107096858
 20
29.3042937533
 10
233.1053339318
 20
28.5152453963
 10
233.2450325132
 20
27.6810074881
 10
233.3291248327
 20
26.8056443517
 10
233.357201201
 20
25.8934206685
 10
233.3291248327
 20
24.9487807005
 10
233.2450325132
 20
23.9763266387
 10
233.1053339318
 20
22.9807961816
 10
232.9107096858
 20
21.9670394533
 10
232.6621079652
 20
20.9399953749
 10
232.3607399324
 20
19.9046676018
 10
232.0080738222
 20
18.8661001469
 10
231.6058277886
 20
17.8293528064
 10
231.1559615336
 20
16.7994765091
 10
230.6606667605
 20
15.7814887089
 10
230.1223564956
 20
14.7803489399
 10
229.5436533325
 20
13.8009346546
 10
228.9273766548
 20
12.8480174608
 10
228.2765289004
 20
11.9262398753
 10
227.5942809343
 20
11.0400927058
 10
226.8839566
 20
10.1938931724
 10
226.1490165261
 20
9.3917638741
 10
225.3930412669
 20
8.6376127041
 10
224.6197138579
 20
7.9351138112
 10
223.8328018723
 20
7.2876896993
 10
223.0361390665
 20
6.6984945537
 10
222.2336067013
 20
6.1703988739
 10
221.429114634
 20
5.7059754889
 10
220.6265822688
 20
5.3074870229
 10
219.829919463
 20
4.9768748714
 10
219.0430074774
 20
4.7157497438
 10
218.2696800684
 20
4.5253838154
 10
217.5137048092
 20
4.4067045299
 10
216.7787647353
 20
4.3602900807
 10
216.068440401
 20
4.3863665945
 10
215.3861924349
 20
4.484807029
 10
214.7353446805
 20
4.6551317925
 10
214.1190680028
 20
4.8965110797
 10
213.5403648397
 20
5.207768915
 10
213.0020545748
 20
5.5873888816
 10
212.5067598017
 20
6.0335215091
 10
212.0568935468
 20
6.5439932842
 10
211.6546475131
 20
7.1163172397
 10
211.3019814029
 20
7.7477050709
 10
211.0006133701
 20
8.4350807198
 10
210.7520116495
 20
9.1750953611
 10
210.5573874035
 20
9.964143718
 10
210.4176888221
 20
10.7983816263
 10
210.3335965026
 20
11.6737447626
 10
210.3055201343
 20
12.5859684458
  0
LWPOLYLINE
  5
CD
330
1F
100
AcDbEntity
  8
0
  6
Continuous
 62
     7
370
    25
100
AcDbPolyline
 90
      101
 70
   128
 43
0.0
 10
207.6892250439
 20
11.0756134389
 10
207.7171313181
 20
12.117143824
 10
207.8007400074
 20
13.1867836629
 10
207.9397211464
 20
14.2803115757
 10
208.1335262401
 20
15.3934119074
 10
208.3813904284
 20
16.5216917596
 10
208.6823355045
 20
17.660698327
 10
209.0351737757
 20
18.8059364712
 10
209.4385127505
 20
19.9528864605
 10
209.8907606343
 20
21.097021807
 10
210.3901326113
 20
22.2338271315
 10
210.9346578884
 20
23.3588159826
 10
211.5221874732
 20
24.4675485432
 10
212.1504026548
 20
25.5556491526
 10
212.8168241548
 20
26.6188235747
 10
213.5188219121
 20
27.6528759457
 10
214.2536254622
 20
28.6537253334
 10
215.0183348713
 20
29.6174218425
 10
215.8099321806
 20
30.5401622031
 10
216.6252933172
 20
31.4183047806
 10
217.4612004232
 20
32.2483839475
 10
218.3143545551
 20
33.0271237604
 10
219.1813887034
 20
33.7514508892
 10
220.0588810804
 20
34.4185067454
 10
220.9433686246
 20
35.0256587646
 10
221.8313606677
 20
35.5705107949
 10
222.7193527107
 20
36.0509125544
 10
223.6038402549
 20
36.4649681167
 10
224.4813326319
 20
36.8110433938
 10
225.3483667802
 20
37.0877725846
 10
226.2015209121
 20
37.2940635655
 10
227.0374280181
 20
37.4291022001
 10
227.8527891547
 20
37.4923555527
 10
228.644386464
 20
37.4835739912
 10
229.4090958731
 20
37.4027921724
 10
230.1438994232
 20
37.2503289053
 10
230.8458971805
 20
37.0267858927
 10
231.5123186805
 20
36.7330453567
 10
232.1405338621
 20
36.3702665571
 10
232.7280634469
 20
35.939881216
 10
233.272588724
 20
35.4435878677
 10
233.771960701
 20
34.8833451554
 10
234.2242085848
 20
34.2613641011
 10
234.6275475596
 20
33.5800993798
 10
234.9803858308
 20
32.8422396323
 10
235.2813309069
 20
32.0506968537
 10
235.5291950952
 20
31.2085949018
 10
235.7230001889
 20
30.3192571684
 10
235.8619813279
 20
29.3861934631
 10
235.9455900172
 20
28.4130861621
 10
235.9734962914
 20
27.4037756754
 10
235.9455900172
 20
26.3622452903
 10
235.8619813279
 20
25.2926054515
 10
235.7230001889
 20
24.1990775386
 10
235.5291950952
 20
23.0859772069
 10
235.2813309069
 20
21.9576973548
 10
234.9803858308
 20
20.8186907873
 10
234.6275475596
 20
19.6734526431
 10
234.2242085848
 20
18.5265026539
 10
233.771960701
 20
17.3823673073
 10
233.272588724
 20
16.2455619828
 10
232.7280634469
 20
15.1205731318
 10
232.1405338621
 20
14.0118405711
 10
231.5123186805
 20
12.9237399617
 10
230.8458971805
 20
11.8605655397
 10
230.1438994232
 20
10.8265131687
 10
229.4090958731
 20
9.825663781
 10
228.644386464
 20
8.8619672719
 10
227.8527891547
 20
7.9392269112
 10
227.0374280181
 20
7.0610843337
 10
226.2015209121
 20
6.2310051669
 10
225.3483667802
 20
5.4522653539
 10
224.4813326319
 20
4.7279382252
 10
223.6038402549
 20
4.0608823689
 10
222.7193527107
 20
3.4537303498
 10
221.8313606677
 20
2.9088783195
 10
220.9433686246
 20
2.42847656
 10
220.0588810804
 20
2.0144209976
 10
219.1813887034
 20
1.6683457206
 10
218.3143545551
 20
1.3916165297
 10
217.4612004232
 20
1.1853255489
 10
216.6252933172
 20
1.0502869143
 10
215.8099321806
 20
0.9870335616
 10
215.0183348713
 20
0.9958151231
 10
214.2536254622
 20
1.0765969419
 10
213.5188219121
 20
1.229060209
 10
212.8168241548
 20
1.4526032217
 10
212.1504026548
 20
1.7463437576
 10
211.5221874732
 20
2.1091225573
 10
210.9346578884
 20
2.5395078984
 10
210.3901326113
 20
3.0358012466
 10
209.8907606343
 20
3.5960439589
 10
209.4385127505
 20
4.2180250133
 10
209.0351737757
 20
4.8992897345
 10
208.6823355045
 20
5.6371494821
 10
208.3813904284
 20
6.4286922607
 10
208.1335262401
 20
7.2707942125
 10
207.9397211464
 20
8.1601319459
 10
207.8007400074
 20
9.0931956512
 10
207.7171313181
 20
10.0663029522
 10
207.6892250439
 20
11.0756134389
  0
LWPOLYLINE
  5
CE
330
1F
100
AcDbEntity
  8
0
  6
Continuous
 62
     7
370
    25
100
AcDbPolyline
 90
       52
 70
   128
 43
0.0
 10
261.8825861944
 20
19.2119994286
 10
262.1925720625
 20
19.0215941808
 10
262.7801016473
 20
18.5912088397
 10
263.3246269244
 20
18.0949154915
 10
263.8239989014
 20
17.5346727792
 10
264.2762467852
 20
16.9126917249
 10
264.6795857601
 20
16.2314270036
 10
265.0324240313
 20
15.493567256
 10
265.3333691074
 20
14.7020244775
 10
265.5812332956
 20
13.8599225256
 10
265.7750383893
 20
12.9705847922
 10
265.9140195284
 20
12.0375210869
 10
265.9976282176
 20
11.0644137859
 10
266.0255344918
 20
10.0551032992
 10
265.9976282176
 20
9.0135729141
 10
265.9140195284
 20
7.9439330752
 10
265.7750383893
 20
6.8504051624
 10
265.5812332956
 20
5.7373048307
 10
265.3333691074
 20
4.6090249785
 10
265.0324240313
 20
3.4700184111
 10
264.6795857601
 20
2.3247802669
 10
264.2762467852
 20
1.1778302777
 10
263.8239989014
 20
0.0336949311
 10
263.3246269244
 20
-1.1031103934
 10
262.7801016473
 20
-2.2280992445
 10
262.1925720625
 20
-3.3368318051
 10
261.564356881
 20
-4.4249324145
 10
260.8979353809
 20
-5.4881068365
 10
260.1959376236
 20
-6.5221592076
 10
259.4611340735
 20
-7.5230085953
 10
258.6964246645
 20
-8.4867051044
 10
257.9048273552
 20
-9.409445465
 10
257.0894662186
 20
-10.2875880425
 10
256.2535591126
 20
-11.1176672094
 10
255.4004049806
 20
-11.8964070223
 10
254.5333708323
 20
-12.620734151
 10
253.6558784553
 20
-13.2877900073
 10
252.7713909111
 20
-13.8949420265
 10
251.8833988681
 20
-14.4397940568
 10
250.995406825
 20
-14.9201958162
 10
250.1109192809
 20
-15.3342513786
 10
249.2334269039
 20
-15.6803266557
 10
248.3663927555
 20
-15.9570558465
 10
247.5132386236
 20
-16.1633468273
 10
246.6773315176
 20
-16.298385462
 10
245.861970381
 20
-16.3616388146
 10
245.0703730717
 20
-16.3528572531
 10
244.3056636627
 20
-16.2720754343
 10
243.5708601125
 20
-16.1196121672
 10
242.8688623552
 20
-15.8960691546
 10
242.2024408552
 20
-15.6023286186
 10
241.8842115417
 20
-15.4299550667
  0
LWPOLYLINE
  5
CF
330
1F
100
AcDbEntity
  8
0
  6
Continuous
 62
     7
370
    25
100
AcDbPolyline
 90
       29
 70
   128
 43
0.0
 10
217.3765879462
 20
8.5039278867
 10
217.4046643144
 20
9.4485678547
 10
217.4887566339
 20
10.4210219165
 10
217.6284552154
 20
11.4165523737
 10
217.8230794613
 20
12.4303091019
 10
218.071681182
 20
13.4573531803
 10
218.3730492148
 20
14.4926809534
 10
218.7257153249
 20
15.5312484084
 10
219.1279613586
 20
16.5679957489
 10
219.5778276136
 20
17.5978720461
 10
220.0731223867
 20
18.6158598464
 10
220.6114326515
 20
19.6169996153
 10
221.1901358146
 20
20.5964139007
 10
221.8064124924
 20
21.5493310945
 10
222.4572602467
 20
22.47110868
 10
223.1395082128
 20
23.3572558494
 10
223.8498325472
 20
24.2034553828
 10
224.5847726211
 20
25.0055846812
 10
225.3407478803
 20
25.7597358512
 10
226.1140752893
 20
26.4622347441
 10
226.9009872748
 20
27.1096588559
 10
227.6976500807
 20
27.6988540015
 10
228.5001824458
 20
28.2269496813
 10
229.3046745132
 20
28.6913730663
 10
230.1072068783
 20
29.0898615324
 10
230.9038696842
 20
29.4204736838
 10
231.6907816697
 20
29.6815988114
 10
232.4641090788
 20
29.8719647398
 10
232.7096302367
 20
29.9180436829
  0
ARC
  5
D0
330
1F
100
AcDbEntity
  8
0
  6
Continuous
 62
     7
370
    25
100
AcDbCircle
 10
229.1227850527
 20
8.3295082973
 30
0.0
 40
11.74749201565522
100
AcDbArc
 50
179.1492759875
 51
199.1320749795
  0
LWPOLYLINE
  5
D1
330
1F
100
AcDbEntity
  8
0
  6
Continuous
 62
     7
370
    25
100
AcDbPolyline
 90
       28
 70
   128
 43
0.0
 10
218.7908015086
 20
8.5039278867
 10
218.8190034427
 20
9.4216807301
 10
218.9034622134
 20
10.3672100952
 10
219.0437374916
 20
11.3355864297
 10
219.2390979471
 20
12.3217610679
 10
219.4885250608
 20
13.3205925517
 10
219.7907184353
 20
14.3268734363
 10
220.1441025743
 20
15.3353574392
 10
220.5468350964
 20
16.3407867917
 10
220.9968163409
 20
17.3379196507
 10
221.4917003138
 20
18.3215574272
 10
222.0289069193
 20
19.2865718893
 10
222.6056354109
 20
20.2279318984
 10
223.2188789932
 20
21.1407296393
 10
223.8654404982
 20
22.0202062073
 10
224.5419490535
 20
22.8617764187
 10
225.2448776569
 20
23.6610527161
 10
225.970561564
 20
24.4138680431
 10
226.715217395
 20
25.1162975691
 10
227.4749628592
 20
25.7646791518
 10
228.2458369955
 20
26.3556324298
 10
229.0238208231
 20
26.8860764465
 10
229.8048582946
 20
27.3532457122
 10
230.5848774422
 20
27.7547046228
 10
231.3598116073
 20
28.0883601574
 10
232.125620642
 20
28.3524727905
 10
232.8783119725
 20
28.5456655611
 10
233.0901668605
 20
28.587642884
  0
ARC
  5
D2
330
1F
100
AcDbEntity
  8
0
  6
Continuous
 62
     7
370
    25
100
AcDbCircle
 10
229.8397339741
 20
8.3390855832
 30
0.0
 40
11.05016206275898
100
AcDbArc
 50
179.1452506707
 51
198.5970275472
  0
LINE
  5
D3
330
1F
100
AcDbEntity
  8
0
  6
Continuous
 62
     7
370
    25
100
AcDbLine
 10
271.3288353507
 20
0.152307136
 30
0.0
 11
284.4103108027
 21
-7.3994678984
 31
0.0
  0
LINE
  5
D4
330
1F
100
AcDbEntity
  8
0
  6
Continuous
 62
     7
370
    25
100
AcDbLine
 10
264.96487432
 20
-31.5894060185
 30
0.0
 11
284.4103108027
 21
-7.3994678984
 31
0.0
  0
LINE
  5
D5
330
1F
100
AcDbEntity
  8
0
  6
Continuous
 62
     7
370
    25
100
AcDbLine
 10
251.8833988681
 20
-24.0376309841
 30
0.0
 11
264.96487432
 21
-31.5894060185
 31
0.0
  0
LINE
  5
D6
330
1F
100
AcDbEntity
  8
0
  6
Continuous
 62
     7
370
    25
100
AcDbLine
 10
271.3288353507
 20
0.152307136
 30
0.0
 11
251.8833988681
 21
-24.0376309841
 31
0.0
  0
LINE
  5
D7
330
1F
100
AcDbEntity
  8
0
  6
Continuous
 62
     7
370
    25
100
AcDbLine
 10
251.8833988681
 20
-24.0376309841
 30
0.0
 11
232.4379623855
 21
-22.2989159392
 31
0.0
  0
LINE
  5
D8
330
1F
100
AcDbEntity
  8
0
  6
Continuous
 62
     7
370
    25
100
AcDbLine
 10
232.4379623855
 20
-22.2989159392
 30
0.0
 11
232.4379623855
 21
-9.9767515035
 31
0.0
  0
LINE
  5
D9
330
1F
100
AcDbEntity
  8
0
  6
Continuous
 62
     7
370
    25
100
AcDbLine
 10
250.3266526582
 20
25.8830978607
 30
0.0
 11
251.8833988681
 21
27.819675346
 31
0.0
  0
LINE
  5
DA
330
1F
100
AcDbEntity
  8
0
  6
Continuous
 62
     7
370
    25
100
AcDbLine
 10
251.8833988681
 20
27.819675346
 30
0.0
 11
271.3288353507
 21
26.080960301
 31
0.0
  0
LINE
  5
DB
330
1F
100
AcDbEntity
  8
0
  6
Continuous
 62
     7
370
    25
100
AcDbLine
 10
271.3288353507
 20
26.080960301
 30
0.0
 11
271.3288353507
 21
0.152307136
 31
0.0
  0
LINE
  5
DC
330
1F
100
AcDbEntity
  8
0
  6
Continuous
 62
     7
370
    25
100
AcDbLine
 10
271.3288353507
 20
26.080960301
 30
0.0
 11
284.4103108027
 21
18.5291852667
 31
0.0
  0
LINE
  5
DD
330
1F
100
AcDbEntity
  8
0
  6
Continuous
 62
     7
370
    25
100
AcDbLine
 10
284.4103108027
 20
-7.3994678984
 30
0.0
 11
284.4103108027
 21
18.5291852667
 31
0.0
  0
LINE
  5
DE
330
1F
100
AcDbEntity
  8
0
  6
Continuous
 62
     7
370
    25
100
AcDbLine
 10
232.4379623855
 20
-22.2989159392
 30
0.0
 11
245.5194378374
 21
-29.8506909735
 31
0.0
  0
LINE
  5
DF
330
1F
100
AcDbEntity
  8
0
  6
Continuous
 62
     7
370
    25
100
AcDbLine
 10
245.5194378374
 20
-29.8506909735
 30
0.0
 11
264.96487432
 21
-31.5894060185
 31
0.0
  0
LINE
  5
E0
330
1F
100
AcDbEntity
  8
0
  6
Continuous
 62
     7
370
    25
100
AcDbLine
 10
113.3323425481
 20
31.645544311
 30
0.0
 11
113.3323425481
 21
13.645544311
 31
0.0
  0
LINE
  5
E1
330
1F
100
AcDbEntity
  8
0
  6
Continuous
 62
     7
370
    25
100
AcDbLine
 10
166.3323425481
 20
13.645544311
 30
0.0
 11
166.3323425481
 21
31.645544311
 31
0.0
  0
LINE
  5
E2
330
1F
100
AcDbEntity
  8
0
  6
Continuous
 62
     7
370
    25
100
AcDbLine
 10
119.8323425481
 20
-4.854455689
 30
0.0
 11
119.8323425481
 21
-47.354455689
 31
0.0
  0
LINE
  5
E3
330
1F
100
AcDbEntity
  8
0
  6
Continuous
 62
     7
370
    25
100
AcDbLine
 10
159.8323425481
 20
-47.354455689
 30
0.0
 11
159.8323425481
 21
-4.854455689
 31
0.0
  0
LINE
  5
E4
330
1F
100
AcDbEntity
  8
0
  6
Continuous
 62
     7
370
    25
100
AcDbLine
 10
113.3323425481
 20
31.645544311
 30
0.0
 11
166.3323425481
 21
31.645544311
 31
0.0
  0
LINE
  5
E5
330
1F
100
AcDbEntity
  8
0
  6
Continuous
 62
     7
370
    25
100
AcDbLine
 10
139.8323425481
 20
-4.854455689
 30
0.0
 11
139.8323425481
 21
13.645544311
 31
0.0
  0
LINE
  5
E6
330
1F
100
AcDbEntity
  8
0
  6
Continuous
 62
     7
370
    25
100
AcDbLine
 10
167.3323425481
 20
13.645544311
 30
0.0
 11
139.8323425481
 21
13.645544311
 31
0.0
  0
LINE
  5
E7
330
1F
100
AcDbEntity
  8
0
  6
Continuous
 62
     7
370
    25
100
AcDbLine
 10
167.3323425481
 20
-4.854455689
 30
0.0
 11
167.3323425481
 21
13.645544311
 31
0.0
  0
LINE
  5
E8
330
1F
100
AcDbEntity
  8
0
  6
Continuous
 62
     7
370
    25
100
AcDbLine
 10
139.8323425481
 20
-4.854455689
 30
0.0
 11
167.3323425481
 21
-4.854455689
 31
0.0
  0
LINE
  5
E9
330
1F
100
AcDbEntity
  8
0
  6
Continuous
 62
     7
370
    25
100
AcDbLine
 10
112.3323425481
 20
-4.854455689
 30
0.0
 11
112.3323425481
 21
13.645544311
 31
0.0
  0
LINE
  5
EA
330
1F
100
AcDbEntity
  8
0
  6
Continuous
 62
     7
370
    25
100
AcDbLine
 10
139.8323425481
 20
13.645544311
 30
0.0
 11
112.3323425481
 21
13.645544311
 31
0.0
  0
LINE
  5
EB
330
1F
100
AcDbEntity
  8
0
  6
Continuous
 62
     7
370
    25
100
AcDbLine
 10
112.3323425481
 20
-4.854455689
 30
0.0
 11
139.8323425481
 21
-4.854455689
 31
0.0
  0
LINE
  5
EC
330
1F
100
AcDbEntity
  8
0
  6
Continuous
 62
     7
370
    25
100
AcDbLine
 10
119.8323425481
 20
-47.354455689
 30
0.0
 11
159.8323425481
 21
-47.354455689
 31
0.0
  0
ENDSEC
  0
SECTION
  2
OBJECTS
  0
DICTIONARY
  5
C
330
0
100
AcDbDictionary
281
     1
  3
ACAD_GROUP
350
D
  3
ACAD_LAYOUT
350
1A
  3
ACAD_MLINESTYLE
350
17
  3
ACAD_PLOTSETTINGS
350
19
  3
ACAD_PLOTSTYLENAME
350
E
  3
ACAD_SCALELIST
350
47
  3
DWGPROPS
350
ED
  0
DICTIONARY
  5
D
102
{ACAD_REACTORS
330
C
102
}
330
C
100
AcDbDictionary
281
     1
  0
DICTIONARY
  5
1A
102
{ACAD_REACTORS
330
C
102
}
330
C
100
AcDbDictionary
281
     1
  3
Layout1
350
1E
  3
Layout2
350
26
  3
Model
350
22
  0
DICTIONARY
  5
17
102
{ACAD_REACTORS
330
C
102
}
330
C
100
AcDbDictionary
281
     1
  3
Standard
350
18
  0
DICTIONARY
  5
19
102
{ACAD_REACTORS
330
C
102
}
330
C
100
AcDbDictionary
281
     1
  0
ACDBDICTIONARYWDFLT
  5
E
102
{ACAD_REACTORS
330
C
102
}
330
C
100
AcDbDictionary
281
     1
  3
Normal
350
F
100
AcDbDictionaryWithDefault
340
F
  0
DICTIONARY
  5
47
102
{ACAD_REACTORS
330
C
102
}
330
C
100
AcDbDictionary
281
     1
  3
A0
350
48
  3
A1
350
49
  3
A2
350
4A
  3
A3
350
4B
  3
A4
350
4C
  3
A5
350
4D
  3
A6
350
4E
  3
A7
350
4F
  3
A8
350
50
  3
A9
350
51
  3
B0
350
52
  3
B1
350
53
  3
B2
350
54
  3
B3
350
55
  3
B4
350
56
  3
B5
350
57
  3
B6
350
58
  3
B7
350
59
  3
B8
350
5A
  3
B9
350
5B
  3
C0
350
5C
  3
C1
350
5D
  3
C2
350
5E
  3
C3
350
5F
  3
C4
350
60
  3
C5
350
61
  3
C6
350
62
  3
C7
350
63
  3
C8
350
64
  3
C9
350
65
  3
D0
350
66
  3
D1
350
67
  3
D2
350
68
  0
XRECORD
  5
ED
102
{ACAD_REACTORS
330
C
102
}
330
C
100
AcDbXrecord
280
     1
  1
DWGPROPS COOKIE
  2

  3

  4

  6

  7

  8
b.kav
  9

300
=
301
=
302
=
303
=
304
=
305
=
306
=
307
=
308
=
309
=
 40
0.0
 41
2459935.584304398
 42
2459935.584304572
  1

 90
        0
  0
LAYOUT
  5
1E
102
{ACAD_REACTORS
330
1A
102
}
330
1A
100
AcDbPlotSettings
  1

  2
none_device
  4

  6

 40
0.0
 41
0.0
 42
0.0
 43
0.0
 44
0.0
 45
0.0
 46
0.0
 47
0.0
 48
0.0
 49
0.0
140
0.0
141
0.0
142
1.0
143
1.0
 70
   688
 72
     1
 73
     0
 74
     5
  7

 75
    16
147
1.0
148
0.0
149
0.0
100
AcDbLayout
  1
Layout1
 70
     1
 71
     1
 10
0.0
 20
0.0
 11
420.0
 21
297.0
 12
0.0
 22
0.0
 32
0.0
 14
1.0000000000E+20
 24
1.0000000000E+20
 34
1.0000000000E+20
 15
-1.0000000000E+20
 25
-1.0000000000E+20
 35
-1.0000000000E+20
146
0.0
 13
0.0
 23
0.0
 33
0.0
 16
1.0
 26
0.0
 36
0.0
 17
0.0
 27
1.0
 37
0.0
 76
     0
330
1B
  0
LAYOUT
  5
26
102
{ACAD_REACTORS
330
1A
102
}
330
1A
100
AcDbPlotSettings
  1

  2
none_device
  4

  6

 40
0.0
 41
0.0
 42
0.0
 43
0.0
 44
0.0
 45
0.0
 46
0.0
 47
0.0
 48
0.0
 49
0.0
140
0.0
141
0.0
142
1.0
143
1.0
 70
   688
 72
     1
 73
     0
 74
     5
  7

 75
    16
147
1.0
148
0.0
149
0.0
100
AcDbLayout
  1
Layout2
 70
     1
 71
     2
 10
0.0
 20
0.0
 11
0.0
 21
0.0
 12
0.0
 22
0.0
 32
0.0
 14
0.0
 24
0.0
 34
0.0
 15
0.0
 25
0.0
 35
0.0
146
0.0
 13
0.0
 23
0.0
 33
0.0
 16
1.0
 26
0.0
 36
0.0
 17
0.0
 27
1.0
 37
0.0
 76
     0
330
23
  0
LAYOUT
  5
22
102
{ACAD_REACTORS
330
1A
102
}
330
1A
100
AcDbPlotSettings
  1

  2
none_device
  4
Letter_(8.50_x_11.00_Inches)
  6

 40
6.35
 41
6.35
 42
6.35000508
 43
6.35000508
 44
215.9
 45
279.4
 46
0.0
 47
0.0
 48
0.0
 49
0.0
140
0.0
141
0.0
142
1.0
143
1.0
 70
  1712
 72
     1
 73
     0
 74
     0
  7

 75
     0
147
1.0
148
0.0
149
0.0
100
AcDbLayout
  1
Model
 70
     1
 71
     0
 10
0.0
 20
0.0
 11
279.4
 21
215.9
 12
0.0
 22
0.0
 32
0.0
 14
0.0
 24
0.0
 34
0.0
 15
279.4
 25
215.9
 35
0.0
146
0.0
 13
0.0
 23
0.0
 33
0.0
 16
1.0
 26
0.0
 36
0.0
 17
0.0
 27
1.0
 37
0.0
 76
     0
330
1F
331
29
  0
MLINESTYLE
  5
18
102
{ACAD_REACTORS
330
17
102
}
330
17
100
AcDbMlineStyle
  2
Standard
 70
     0
  3

 62
   256
 51
90.0
 52
90.0
 71
     2
 49
0.5
 62
   256
  6
BYLAYER
 49
-0.5
 62
   256
  6
BYLAYER
  0
ACDBPLACEHOLDER
  5
F
102
{ACAD_REACTORS
330
E
102
}
330
E
  0
SCALE
  5
48
102
{ACAD_REACTORS
330
47
102
}
330
47
100
AcDbScale
 70
     0
300
1:1
140
1.0
141
1.0
290
     1
  0
SCALE
  5
49
102
{ACAD_REACTORS
330
47
102
}
330
47
100
AcDbScale
 70
     0
300
1:2
140
1.0
141
2.0
290
     0
  0
SCALE
  5
4A
102
{ACAD_REACTORS
330
47
102
}
330
47
100
AcDbScale
 70
     0
300
1:4
140
1.0
141
4.0
290
     0
  0
SCALE
  5
4B
102
{ACAD_REACTORS
330
47
102
}
330
47
100
AcDbScale
 70
     0
300
1:5
140
1.0
141
5.0
290
     0
  0
SCALE
  5
4C
102
{ACAD_REACTORS
330
47
102
}
330
47
100
AcDbScale
 70
     0
300
1:8
140
1.0
141
8.0
290
     0
  0
SCALE
  5
4D
102
{ACAD_REACTORS
330
47
102
}
330
47
100
AcDbScale
 70
     0
300
1:10
140
1.0
141
10.0
290
     0
  0
SCALE
  5
4E
102
{ACAD_REACTORS
330
47
102
}
330
47
100
AcDbScale
 70
     0
300
1:16
140
1.0
141
16.0
290
     0
  0
SCALE
  5
4F
102
{ACAD_REACTORS
330
47
102
}
330
47
100
AcDbScale
 70
     0
300
1:20
140
1.0
141
20.0
290
     0
  0
SCALE
  5
50
102
{ACAD_REACTORS
330
47
102
}
330
47
100
AcDbScale
 70
     0
300
1:30
140
1.0
141
30.0
290
     0
  0
SCALE
  5
51
102
{ACAD_REACTORS
330
47
102
}
330
47
100
AcDbScale
 70
     0
300
1:40
140
1.0
141
40.0
290
     0
  0
SCALE
  5
52
102
{ACAD_REACTORS
330
47
102
}
330
47
100
AcDbScale
 70
     0
300
1:50
140
1.0
141
50.0
290
     0
  0
SCALE
  5
53
102
{ACAD_REACTORS
330
47
102
}
330
47
100
AcDbScale
 70
     0
300
1:100
140
1.0
141
100.0
290
     0
  0
SCALE
  5
54
102
{ACAD_REACTORS
330
47
102
}
330
47
100
AcDbScale
 70
     0
300
2:1
140
2.0
141
1.0
290
     0
  0
SCALE
  5
55
102
{ACAD_REACTORS
330
47
102
}
330
47
100
AcDbScale
 70
     0
300
4:1
140
4.0
141
1.0
290
     0
  0
SCALE
  5
56
102
{ACAD_REACTORS
330
47
102
}
330
47
100
AcDbScale
 70
     0
300
8:1
140
8.0
141
1.0
290
     0
  0
SCALE
  5
57
102
{ACAD_REACTORS
330
47
102
}
330
47
100
AcDbScale
 70
     0
300
10:1
140
10.0
141
1.0
290
     0
  0
SCALE
  5
58
102
{ACAD_REACTORS
330
47
102
}
330
47
100
AcDbScale
 70
     0
300
100:1
140
100.0
141
1.0
290
     0
  0
SCALE
  5
59
102
{ACAD_REACTORS
330
47
102
}
330
47
100
AcDbScale
 70
     0
300
1/128" = 1'-0"
140
0.0078125
141
12.0
290
     0
  0
SCALE
  5
5A
102
{ACAD_REACTORS
330
47
102
}
330
47
100
AcDbScale
 70
     0
300
1/64" = 1'-0"
140
0.015625
141
12.0
290
     0
  0
SCALE
  5
5B
102
{ACAD_REACTORS
330
47
102
}
330
47
100
AcDbScale
 70
     0
300
1/32" = 1'-0"
140
0.03125
141
12.0
290
     0
  0
SCALE
  5
5C
102
{ACAD_REACTORS
330
47
102
}
330
47
100
AcDbScale
 70
     0
300
1/16" = 1'-0"
140
0.0625
141
12.0
290
     0
  0
SCALE
  5
5D
102
{ACAD_REACTORS
330
47
102
}
330
47
100
AcDbScale
 70
     0
300
3/32" = 1'-0"
140
0.09375
141
12.0
290
     0
  0
SCALE
  5
5E
102
{ACAD_REACTORS
330
47
102
}
330
47
100
AcDbScale
 70
     0
300
1/8" = 1'-0"
140
0.125
141
12.0
290
     0
  0
SCALE
  5
5F
102
{ACAD_REACTORS
330
47
102
}
330
47
100
AcDbScale
 70
     0
300
3/16" = 1'-0"
140
0.1875
141
12.0
290
     0
  0
SCALE
  5
60
102
{ACAD_REACTORS
330
47
102
}
330
47
100
AcDbScale
 70
     0
300
1/4" = 1'-0"
140
0.25
141
12.0
290
     0
  0
SCALE
  5
61
102
{ACAD_REACTORS
330
47
102
}
330
47
100
AcDbScale
 70
     0
300
3/8" = 1'-0"
140
0.375
141
12.0
290
     0
  0
SCALE
  5
62
102
{ACAD_REACTORS
330
47
102
}
330
47
100
AcDbScale
 70
     0
300
1/2" = 1'-0"
140
0.5
141
12.0
290
     0
  0
SCALE
  5
63
102
{ACAD_REACTORS
330
47
102
}
330
47
100
AcDbScale
 70
     0
300
3/4" = 1'-0"
140
0.75
141
12.0
290
     0
  0
SCALE
  5
64
102
{ACAD_REACTORS
330
47
102
}
330
47
100
AcDbScale
 70
     0
300
1" = 1'-0"
140
1.0
141
12.0
290
     0
  0
SCALE
  5
65
102
{ACAD_REACTORS
330
47
102
}
330
47
100
AcDbScale
 70
     0
300
1-1/2" = 1'-0"
140
1.5
141
12.0
290
     0
  0
SCALE
  5
66
102
{ACAD_REACTORS
330
47
102
}
330
47
100
AcDbScale
 70
     0
300
3" = 1'-0"
140
3.0
141
12.0
290
     0
  0
SCALE
  5
67
102
{ACAD_REACTORS
330
47
102
}
330
47
100
AcDbScale
 70
     0
300
6" = 1'-0"
140
6.0
141
12.0
290
     0
  0
SCALE
  5
68
102
{ACAD_REACTORS
330
47
102
}
330
47
100
AcDbScale
 70
     0
300
1'-0" = 1'-0"
140
12.0
141
12.0
290
     0
  0
ENDSEC
  0
EOF
